#----------------------------------PLEASE NOTE---------------------------------#
#This file is the author's own work and represents their interpretation of the #
#song. You may only use this file for private study, scholarship, or research. #
#------------------------------------------------------------------------------#

INFINITY
As recorded by Hawkwind
(From the 1979 Album PXR5)

Transcribed by UncleDes (Andy Mackie)

Words and Music by Dave Brock


Gtr I (E A D G B E) - 'Untitled'

 Fade in Intro
  Q=96
 4/4
  Gtr I
  E E E E E E E E   E E E E E E E E   E E E E E E E E   E E E E E E E E
|-----------------|-----------------|-----------------|------------------|
|---2---2---2---2-|---3---3---3---3-|---2---2---2---2-|---3---3---3---3--|
|-----------------|-----------------|-----------------|------------------|
|-----------------|-----------------|-----------------|------------------|
|-0---0---0---0---|-0---0---0---0---|-0---0---0---0---|-0---0---0---0----|
|-----------------|-----------------|-----------------|------------------|


   Verse I
    E E E E E E E E   E E E E E E E E   E E E E E E E E   E E E E E E E E
||------------------|-----------------|-----------------|-----------------||
||o---2---2---2---2-|---3---3---3---3-|---2---2---2---2-|---3---3---3---3o||
||------------------|-----------------|-----------------|-----------------||
||------------------|-----------------|-----------------|-----------------||
||o-0---0---0---0---|-0---0---0---0---|-0---0---0---0---|-0---0---0---0--o||
||------------------|-----------------|-----------------|-----------------||


 Chorus
  E E E E E E E E   E E E E E E E E   E E E E E E E E   E E E E E E E E
|-----------------|-----------------|-----------------|-----------------|
|-----------------|-----------------|-----------------|-----------------|
|---4---4---4---4-|---2---2---2---2-|---2---2---1---1-|---2---2---2---2-|
|-----------------|-----------------|-----------------|-----------------|
|-----------------|-----------------|-----------------|-----------------|
|-3---3---3---3---|-1---1---1---1---|-0---0---0---0---|-1---1---1---1---|


  E E E E E E E E   E E E E E E E E   E E E E E E E E   E E E E E E E
|-----------------|-----------------|-----------------|----------------|
|---2---2---2---2-|---3---3---3---3-|---2---2---2---2-|---3---3---3----|
|-----------------|-----------------|-----------------|----------------|
|-----------------|-----------------|-----------------|----------------|
|-0---0---0---0---|-0---0---0---0---|-0---0---0---0---|-0---0---0---0--|
|-----------------|-----------------|-----------------|----------------|


   Verse II
    E E E E E E E E   E E E E E E E E   E E E E E E E E   E E E E E E E E
||------------------|-----------------|-----------------|-----------------||
||o---2---2---2---2-|---3---3---3---3-|---2---2---2---2-|---3---3---3---3o||
||------------------|-----------------|-----------------|-----------------||
||------------------|-----------------|-----------------|-----------------||
||o-0---0---0---0---|-0---0---0---0---|-0---0---0---0---|-0---0---0---0--o||
||------------------|-----------------|-----------------|-----------------||


 Chorus
  E E E E E E E E   E E E E E E E E   E E E E E E E E   E E E E E E E E
|-----------------|-----------------|-----------------|-----------------|
|-----------------|-----------------|-----------------|-----------------|
|---4---4---4---4-|---2---2---2---2-|---2---2---1---1-|---2---2---2---2-|
|-----------------|-----------------|-----------------|-----------------|
|-----------------|-----------------|-----------------|-----------------|
|-3---3---3---3---|-1---1---1---1---|-0---0---0---0---|-1---1---1---1---|


  E E E E E E E E   E E E E E E E E   E E E E E E E E   E E E E E E E
|-----------------|-----------------|-----------------|----------------|
|---2---2---2---2-|---3---3---3---3-|---2---2---2---2-|---3---3---3----|
|-----------------|-----------------|-----------------|----------------|
|-----------------|-----------------|-----------------|----------------|
|-0---0---0---0---|-0---0---0---0---|-0---0---0---0---|-0---0---0---0--|
|-----------------|-----------------|-----------------|----------------|


   Verse III
    E E E E E E E E   E E E E E E E E   E E E E E E E E   E E E E E E E E
||------------------|-----------------|-----------------|-----------------||
||o---2---2---2---2-|---3---3---3---3-|---2---2---2---2-|---3---3---3---3o||
||------------------|-----------------|-----------------|-----------------||
||------------------|-----------------|-----------------|-----------------||
||o-0---0---0---0---|-0---0---0---0---|-0---0---0---0---|-0---0---0---0--o||
||------------------|-----------------|-----------------|-----------------||


 Chorus
  E E E E E E E E   E E E E E E E E   E E E E E E E E   E E E E E E E E
|-----------------|-----------------|-----------------|-----------------|
|-----------------|-----------------|-----------------|-----------------|
|---4---4---4---4-|---2---2---2---2-|---2---2---1---1-|---2---2---2---2-|
|-----------------|-----------------|-----------------|-----------------|
|-----------------|-----------------|-----------------|-----------------|
|-3---3---3---3---|-1---1---1---1---|-0---0---0---0---|-1---1---1---1---|


  E E E E E E E E   E E E E E E E E   E E E E E E E E   E E E E E E E
|-----------------|-----------------|-----------------|----------------|
|---2---2---2---2-|---3---3---3---3-|---2---2---2---2-|---3---3---3----|
|-----------------|-----------------|-----------------|----------------|
|-----------------|-----------------|-----------------|----------------|
|-0---0---0---0---|-0---0---0---0---|-0---0---0---0---|-0---0---0---0--|
|-----------------|-----------------|-----------------|----------------|


   Verse IV
    E E E E E E E E   E E E E E E E E   E E E E E E E E   E E E E E E E E
||------------------|-----------------|-----------------|-----------------||
||o---2---2---2---2-|---3---3---3---3-|---2---2---2---2-|---3---3---3---3o||
||------------------|-----------------|-----------------|-----------------||
||------------------|-----------------|-----------------|-----------------||
||o-0---0---0---0---|-0---0---0---0---|-0---0---0---0---|-0---0---0---0--o||
||------------------|-----------------|-----------------|-----------------||


 Chorus
  E E E E E E E E   E E E E E E E E   E E E E E E E E   E E E E E E E E
|-----------------|-----------------|-----------------|-----------------|
|-----------------|-----------------|-----------------|-----------------|
|---4---4---4---4-|---2---2---2---2-|---2---2---1---1-|---2---2---2---2-|
|-----------------|-----------------|-----------------|-----------------|
|-----------------|-----------------|-----------------|-----------------|
|-3---3---3---3---|-1---1---1---1---|-0---0---0---0---|-1---1---1---1---|


  E E E E E E E E   E E E E E E E E   E E E E E E E E   E E E E E E E E
|-----------------|-----------------|-----------------|-----------------|
|---2---2---2---2-|---3---3---3---3-|---2---2---2---2-|---3---3---3---3-|
|-----------------|-----------------|-----------------|-----------------|
|-----------------|-----------------|-----------------|-----------------|
|-0---0---0---0---|-0---0---0---0---|-0---0---0---0---|-0---0---0---0---|
|-----------------|-----------------|-----------------|-----------------|


    E  E E  E E  E E  E   E E E E E E E E   E E E E E E E E   E E E E E E E E 3x
||----------------------|-----------------|-----------------|-----------------||
||o---------------------|-----------------|-----------------|----------------o||
||----------------------|-----------------|-----------------|-----------------||
||----10---10---10---10-|---9---9---9---9-|---8---8---8---8-|---7---7---7---7-||
||o-0----0----0----0----|-0---0---0---0---|-0---0---0---0---|-0---0---0---0--o||
||----------------------|-----------------|-----------------|-----------------||


  E  E E  E E  E E  E   E E E E E E E E
|---------------------|-----------------|
|---------------------|-----------------|
|---------------------|-----------------|
|---10---10---10---10-|---9---9---9---9-|
|-0----0----0----0----|-0---0---0---0---|
|---------------------|-----------------|


  E E E E E E E E   S S E S S E S S E S S E
|-----------------|-------------------------|
|-----------------|---0-----0-----0-----0---|
|-----------------|-------------------------|
|---8---8---8---8-|-----7-----7-----7-----7-|
|-0---0---0---0---|-0-----0-----0-----0-----|
|-----------------|-------------------------|


   Fade Outro
    S S E S S E S S E S S E   S S E S S E S S E S S E     3x
||--------------------------|-----------------------------||
||o---0-----0-----0-----0---|---0-----0-----0-----0------o||
||------0-----0-----0-----0-|-----------------------------||
||--------------------------|-----7-----7-----7-----7-----||
||o-0-----0-----0-----0-----|-0-----0-----0-----0--------o||
||--------------------------|-----------------------------||


  S S E S S E S S E S S E   S S E S S E S S E S S E
|-------------------------|----------------------------*|
|---0-----0-----0-----0---|---0-----0-----0-----0------*|
|-----0-----0-----0-----0-|----------------------------*|
|-------------------------|-----7-----7-----7-----7----*|
|-0-----0-----0-----0-----|-0-----0-----0-----0--------*|
|-------------------------|----------------------------*|



Duration Legend
---------------
W - whole; H - half; Q - quarter; E - 8th; S - 16th; T - 32nd; X - 64th; a - acciaccatura
+ - note tied to previous; . - note dotted; .. - note double dotted
Uncapitalized letters represent notes that are staccato (1/2 duration)
Irregular groupings are notated above the duration line
Duration letters will always appear directly above the note/fret number it represents the
duration for.  Duration letters with no fret number below them represent rests.  Multi-
bar rests are notated in the form Wxn, where n is the number of bars to rest for.  Low
melody durations appear below the staff

Tablature Legend
----------------
 h   - hammer-on
 p   - pull-off
 b   - bend
 pb  - pre-bend
 r   - bend release (if no number after the r, then release immediately)
 /\  - slide into or out of (from/to "nowhere")
 s   - legato slide
 S   - shift slide
<n> - natural harmonic
[n]  - artificial harmonic
n(n) - tapped harmonic
 ~   - vibrato
 tr  - trill
 T   - tap
 TP  - trem. picking
 PM  - palm muting
\n/  - tremolo bar dip; n = amount to dip
 \n  - tremolo bar down
 n/  - tremolo bar up
/n\  - tremolo bar inverted dip
 =   - hold bend; also acts as connecting device for hammers/pulls
 <> - volume swell (louder/softer)
 x   - on rhythm slash represents muted slash
 o   - on rhythm slash represents single note slash

Misc Legend
-----------
 |  - bar
||  - double bar
||o - repeat start
o|| - repeat end
*|  - double bar (ending)
 :  - bar (freetime)
 $  - Segno
 &  - Coda
Tempo markers - <E/E./Q/Q./H/H.> = BPM(8/16=s8/s16), where s8 = swing 8ths, s16 = swing 16ths


** Generated using Power Tab Editor by Brad Larsen: The Official Power Tab Web Site